POD 32 композиций

Сортировать песни по:датерейтингупосещаемостиалфавиту
  • POD - Alive
             
    1370
    Dropped D Tuning.. --EBGDAD--

    Intro/Verse Riff:
    ---------------------------------------
    ---------------------------------------
    -------------------3-3-3--3-3-3-3------
    0-0-0-3-0--5-5-5-5-3-3-3--3-3-3-3-3-3-3
    0-0-0-3-0--5-5-5-5-1-1-1--1-1-1-1-3-3-3
    0-0-0-3-0--5-5-5-5----------------3-3-3

    Chorus Riff: -----------------------------------------------------
    -----------------------------------------------------
    33333333---7----77777777-----------------------------
    33333333---7----77777777--33333333---3333-3-2---2----
    11111111-1/5----55555555--33333333---3333-----5---5-3
    -------------00-00000000--33333333-0-3333------------

    Verse
    Chorus

    Bridge: --------12h13h12-----------
    ---------------------------
    ---------------------------
    -3-2---------------3-2----3
    5----3------------5----3---
  • POD - Allive
             
    782
    VERSE: [D-----------------------------------------------------------------
    A-----------------------------------------------------------------
    F-----------------------------------------------------------------
    C--2-2-2--0--2--7-7-7-7--10-10-10-10-10-10-10-10--5-5--0----------
    G--2-2-2--0--2--7-7-7-7--10-10-10-10-10-10-10-10--5-5--0----------
    C--0-0-0--0--0--5-5-5-5---8--8--8--8--8--8--8--8--3-3--0----------]

    CHORUS: [D-----------------------------------------------------------------
    A-----------------------------------------------------------------
    F-----------------------------------------------------------------
    C--10--------2--------5--------0-0--5-------5--4--2--4--2---------
    G--10--------2--------5--------0-0--5----------------------5------
    C---8-(16x)--0-(16x)--3-(12x)--0-0--3-(8x)------------------------]

    INTERLUDE: with
  • POD - Anything Right
             
    760
    tuning: dropped c (CGCFAd) low to high
    effects: distortion and slight envelope filter

    Intro/chorus
    [d-----------------------------------------------------
    A-----------------------------------------------------
    F-----------------------------------------------------
    C-2-2-2-0-2---2-----0-----2-2-2-0-2-4-0----2-----0----
    G-2-2-2-0-2---------------2-2-2-0-2-4-0---------------
    C-2-2-2-0-2-0---4-0---2---2-2-2-0-2-4-0--0---4-0---2--]
    first two times third
    [d-----------------------------
    A-----------------------------
    F-----------------------------
    C-2-2-2-0-2-4-0---2--4--5--0--
    G-2-2-2-0-2-4-0---2--4--5--0--
    C-2-2-2-0-2-4-0---2--4--5--0--]
    fourth into verse
    verse
    [d--------------------------------------------------------------------------
    A--------------------------------------------------------------------------
  • POD - Boom
             
    1457
    Drop D tuning

    Intro
    [E---------------------------------------------------------------
    B---------------------------------------------------------------
    G--------------------------------------------------------------- } x3
    D---------------------------------------------------------------
    A---------------------------------------------------------------
    D-2-2-2-2-2-0-0-0-2-2-2-2-2-0-0-0-5-5-5-5-5-5-5-5-7-7-7-7-0-0-0-]
    then play this
    Verse
    [E---------------------------------------------------------------
    B---------------------------------------------------------------
    G---------------------------------------------------------------
    D-2-2-2-2-2-0-0-0-2-2-2-2-2-0-0-0-5-5-5-5-5-5-5-5-7-7-7-7-0-0-0- } x6
    A-2-2-2-2-2-0-0-0-2-2-2-2-2-0-0-0-5-5-5-5-5-5-5-5-7-7-7-7-0-0-0-
    D-2-2-2-2-2-0-0-0-2-2-2-2-2-0-0-0-5-5-5-5-5-5-5-5-7-7-7-7-0-0-0-]
  • POD - Breath Babylon
             
    757
    Dropped D tuning

    Intro: [E---------------------------
    B--------------7-7-7-7-7----
    G--------------5-5-5-5-5----
    D-7-7-7-7-7-----------------
    A-5-5-5-5-5-----------------
    D---------------------------]

    Intro: (second part)
    [E-------
    B-------
    G-------
    D-1-1-1-
    A-1-1-1-
    D-1-1-1-]

    Chorus: [E--------------
    B--------------
    G--------------
    D-4/34--4/34-
    A-4/34--4/34-
    D-4/34--4/34-]

    Verse: [E---------------------------
    B---------------------------
    G---------------------------
    D---------------------------
    A-5-5-5-5/63--3/53--3/53-
    D---------------------------]

    Chorus
    Verse
    Chorus

    Chorus #2: [E---------------------------
    B---------------------------
    G---------------------------
    D---------------------------
  • POD - Bullet The Blue Sky
             
    799
    Dropped D tuning

    Intro: (Note: Don't let the Am that you slide down to from the Dm ring.)
    Just let feedback pour out of your amp. Then:
    [E-x-x-x-x---------
    B-x-x-x-x-6~--6/1-
    G-x-x-x-x-7~--7/2-
    D-x-x-x-x-7~--7/2-
    A-x-x-x-x-5~--5/0-
    D-x-x-x-x-0~------]
    Dm ([05776x])
    / = slide

    Verse 1: Just let this ring while feedback pours out of your amp.
    (The D in the parentheses can be played instead of the
    D on the A string.)
    [E-----
    B-----
    G-----
    D-(0)-
    A--5--
    D--0~-]

    Chorus: [E----------------------------
    B-3-3/5-5-5/6-6-1-1-1/3------]

    Verse 2: On this verse, it sound like Marcos is playing this:
    [E-------------------------------
    B-------------------------------
    G-------------------------------
    D-------------------------------
    A-5-5-5--5-5-5-5--5-5-3-3-------
  • POD - Checkin` Levels
             
    736
    First part: [E--------------------------------------
    B--------------------------------------
    G-----------------------------2-0-2~---
    D-0-2-3-2-0~--0-2-3-2-0----------------
    A--------------------------------------
    E--------------------------------------]

    Variation: [E-------------------------------------------------------
    B--------------------------------12-10-12-10-8-10-------
    G-7-9-10-9-7~--7-9-10-9-7-------------------------------
    D-------------------------------------------------------
    A-------------------------------------------------------
    E-------------------------------------------------------]

    The first part again.
  • POD - Follow Me
             
    750
    Dropped D tuning (Can be played in Standard, but dropped D is easier)

    Intro: 8x with little variation
    [E--------------
    B--------------
    G--------------
    D-2-2--2--5-3--
    A-2-2--2-------
    D-2-2--2-------]

    Then: Play this chord over and over until…
    [E--------
    B--------
    G-9-9--9-
    D-9-9--9-
    A-7-7--7-
    D--------]

    Right before the chorus starts Marcos plays this:
    [E--------------
    B--------------
    G--------------
    D-3-2-2--2-0-0-
    A-3-2-2--------
    D-3-2-2--------]

    Chorus: "Breathe…"
    [E---------------------x-x-x-x-x-x-
    B---------------------x-x-x-x-x-x-
    G---------------------x-x-x-x-x-x-
    D-2-2--2-0-2--2-2--x-x-x-x-x-x----
    A-2-2----------2-2--x-x-x-x-x-x---
    D-2-2----------2-2--x-x-x-x-x-x---]

    Then hold the E ([222xxx])

    Then
  • POD - Freestyle
             
    764
    Dropped D tuning

    Intro: Slight echo effect makes Marcos sound like
    he's playing the note twice. It's an echo.
    But you can cheat if you want.
    [E---------0-(0)-1-(1)-0-(0)---
    B--or----5-(5)-6-(6)-5-(5)----
    G-----------------------------
    D-0-(0)-----------------------
    A-----------------------------
    D-----------------------------]

    Verse: ("Kids coming up from the alleys not like the valleys…")
    [E-0-0-0-0-0-0-0-0-0-0-0-3-3-3-1-1-
    B-3-3-3-3-3-3-3-3-1-1-1-1-1-1-1-1-
    G-2-2-2-2-2-2-2-2-2-2-2-2-2-2-2-2-
    D-0-0-0-0-0-0-0-0-0-0-0-0-0-0-0-0-
    A---------------------------------
    D---------------------------------]

    Chords: D2 ([xx0230])
    Am/D ([xx0210])
    Am9/D ([xx0213])
    Dm7 ([xx0211])

    B Section: 2x ("Tic toc and it don't stop…")
    [E----------------------------
    B----------------------------
  • POD - Full Color
             
    766
    Dropped D tuning

    Intro: 7x
    [E-------------------------------------------------------------------------------------
    B-------------------------------------------------------------------------------------
    G-------------------------------------------------------------------------------------
    D---x-x--10h12-------x-x--8h10------5h7---x-x--3h5-3----------------------------------
    A---x-x-----------12--x-x---------10--------x-x----------5-----------------3-5--------
    D-0-x-x----------------x-x--------------------x-x--------------0--3-2-3-5-------------]

    Intro to Verse: Bass Plays:
    [G-----------------------
    D--------------10-10----
    A-----10h12-------------
    D-0---------------------]

    Verse: Palm mute the open D some.
    [E--------------------------------------------------------------------------------
    B--------------------------------------------------------------------------------
  • POD - Greetings
             
    753
    Dropped D tuning

    Main Part: [E------------------
    B-------------3----
    G----------2----2--
    D------0-----------
    A---0--------------
    D-0----------------]

    Bass: [G-------------
    D-------------
    A-------------
    E-0~---3--2---]

    Then: After Sonny says "We come to ya... with authority…" Marcos is playing some leads
    [E-2~---3~---2~---3~---2~---2~-----0--------------------------2---2h3p2-----------
    B--------------------------------------------3----2--------2--3------------------
    G--------------------------------------------------------------------------------
    D------------------------------------------------------0-------------------------]
  • POD - Guitarras de Amor
             
    839
    [-----------------------------------------------
    -----------------------------------------------
    --4~--5~--4--4-4--7--7-7--5-5--4-4--5-5--
    ----------------------------------------------- } 2x
    -----------------------------------------------
    -----------------------------------------------

    ---------------------------------------------------------------------------------------------
    --12~-12--12-12--13--13-13h15-15h13-13h12--13-12-10~-10-12-13-12-10-12-10-8~
    ---------------------------------------------------------------------------------------------
    ---------------------------------------------------------------------------------------------
    ---------------------------------------------------------------------------------------------
    ---------------------------------------------------------------------------------------------
  • POD - Hollywood
             
    725
    Dropped D tuning

    Intro: I don't have a clue.

    Verse: 4x
    [E-----------------------------
    B-----------------------------
    G---------7~-------5-7--------
    D----7-5-----------------7----
    A-----------------------------
    D-0------------0--------------]

    Guitar 2
    Verse: 4x
    [E----------10~--8-10----------
    B---10-8----------------10----
    G-----------------------------
    D-----------------------------
    A-----------------------------
    D-0-------------0-------------]

    Chorus:
    [E----------------------------------
    B----------------------------------
    G---------7b(8)-------5-7----------
    D-0--7-5----------0---------7b-----
    A-0----------------0---------------
    D-0----------------0---------------]

    Guitar 2
    Chorus:
    [E----------10b(11)-----8-10----------
    B---10-8-----------------------10b---
  • POD - Image
             
    656
    Dropped D tuning

    Chorus: 2x ("Breathe…")
    [E-------------------------------------------------------------------------------------------------------
    B-------------------------------------------------------------------------------------------------------
    G------7--7-7-7-7-7-7-7------7--7-7-7-7-7-7-7------------------------------------7--7-7-7-7-7-7-7-------
    D-3-0-7--7-7-7-7-7-7-7-3-0-7--7-7-7-7-7-7-7-3-2-3-2-3-2-3-2-3-2-3-2-3-0-7--7-7-7-7-7-7-7----------------
    A-3-0-5--5-5-5-5-5-5-5-3-0-5--5-5-5-5-5-5-5-3-2-3-2-3-2-3-2-3-2-3-2-3-0-5--5-5-5-5-5-5-5----------------
    D-3-0----------------------3-0----------------------3-2-3-2-3-2-3-2-3-2-3-2-3-0-------------------------

    E--------------------------------------------------------------------
    B--------------------------------------------------------------------
    G------7--7-7-7-7-7-7-7----------------------------------------------
  • POD - Know Me
             
    688
    [E-----------------------------------------------------
    B-----------------------------------------------------
    G-----------------------------------------------------
    D---------------------------------------2--3--2-------
    A-------------------------------------------------3---
    E--0--1--0--1--0--0--1--0--1--0-----------------------

    E-----------------------------------------------------
    B-----------------------------------------------------
    G-----------------------------------------------------
    D---2--3--2--3--2--2--3--2--3--2--2--3--2-------------
    A---2--3--2--3--2--2--3--2--3--2------------3---------
    E---0--1--0--1--0--0--1--0--1--0----------------------

    E-----------------------------------------------------
    B-----------------------------------------------------
    G---8--9--8--8--7--4--5--4--4-------------------------
  • POD - Lie Down
             
    767
    Dropped D tuning

    Intro:
    [E-0--------------1-------------1--------------3-3-------1-1-1-1-1-1-
    B----3-3-3-3-3----3-3-3-3-3----3-3-3-3-3-------1-1------------------]

    Chorus: ("Lie Down! …") 8x p = pull off
    [E-------------------------------------
    B-------------------------------------
    G-------------------------------------
    D-1p0-0--3p0-0--1p0-0--3p0-0----------
    A-1p0-0--3p0-0--1p0-0--3p0-0----------
    D-1p0-0--3p0-0--1p0-0--3p0-0----------]

    Chorus Variation: 8x
    [E--------------------------------
    B--------------------------------
    G--------------------------------
    D---0-0-------0-0--0-2h3---------
    A--------------------------------
    D-0------1-0---------------------]

    Chorus: Guitar 1 is the same.
    Here is an additional guitar part Marcos is playing over.
    Guitar 2
    [E-------------------------
  • POD - Live And Die
             
    695
    Intro/verse/chorus:
    [A--------------------------------3h5-5-5-5-5-1h3-3-3-3-3-0h1----
    E1h3-3-3-3-3-1h3-3-3-3-3-1h3-3-3-----------------------------0h1]

    Bridge:
    [D------------------------3
    A(5)/6-5---5-3---5-3------
    E--------3-----1-----1-1--]

    Brige 2 (live by the sword...):
    [G8-7---7-5---7-5------------
    D8-7-5-7-5-3-7-5-3-3-3-3-3-3
    A6-5-5-5-3-3-5-3-3-3-3-3-3-3
    E----3-----1-----1-1-1-1-1-1]
  • POD - One Day
             
    771
    Dropped D tuning

    Intro: 4x ("The deeper and deeper…")
    [E------------------------------------------------------------
    B--3-3-3-3-3-3-----------------4-4-4-4-4-4--1-1-1-1-1-1------
    G---------------2-3-3-3-3-3-3--------------------------------]

    Verse: 4x ("Forgive me")
    [E-------------------------------
    B-------------------------------
    G-----------6---6-6-6-6-6-5-----
    D-0---0-0-----------------------
    A-0---0-0-4---4-4-4-4-4-3-------
    D-0---0-0-----------------------]

    Verse 2: 2x ("And all I see…")
    [E------------------------------------------------------
    B------------------------------------------------------
    G-----------8---8-8-8-8-8----------6---6-6-6-6-6-------
    D-0---0-0------------------0---0-0---------------------
    A-0---0-0-6---6-6-6-6-6-0---0-0-4---4-4-4-4-4----------
    D-0---0-0------------------0---0-0---------------------]
  • POD - Outkast
             
    776
    Dropped D tuning

    Intro & Chorus: (The Intro part is really just the low D being played.)
    [E------------------------------------------------------
    B------------------------------------------------------
    G------------------------------------------------------
    D-0-0-0-0-0-0-0-0-0-0-0-0-0-0-0-0--2-2-3-3-10-10-10-10-
    A-0-0-0-0-0-0-0-0-0-0-0-0-0-0-0-0--2-2-3-3-10-10-10-10-
    D-0-0-0-0-0-0-0-0-0-0-0-0-0-0-0-0--2-2-3-3-10-10-10-10-]

    Verse: 4x
    [E------------------------------------------------------------------
    B------------------------------------------------------------------
    G----7------7------7-------7------7------7--9-9-9-9h10p9-7---------
    D------------------------------------------------------------------
    A------------------------------------------------------------------
    D-0------0------0------0------0------0-----------------------------]
  • POD - Portrait
             
    702
    Intro: [--5---5--3----3--1-----1-0----0-0---0-----1----1-------------------------------------------------
    ----3-------3--------3-------3-----3----3-----3-----1----1--3----3-1-----1--3------3------------
    ---------------------------------------------------------0-------0-------2---------2----------------
    -----------------------------------------------------------------------------------------------------
    -----------------------------------------------------------------------------------------------------
    -----------------------------------------------------------------------------------------------------

    ------------------------
    ------------------------
    ------------------------
    ---0--2-2--0--2--5---
    ---0--2-2--0--2--5---
    ---0--2-2--0--2--5---]

    verse: [---------------------
    ---------------------
    ---------------------
  • POD - Preach
             
    633
    Dropped D tuning

    Verse: Play with a sustain kind of distortion.
    [E---------16~--16----------
    B-17-16------------16-17~--]

    Let it be know that you heard it from here
    When I'm on this microphone you know I make myself clear
    With the power, with the love, with the boldness
    Look in my eyes and remember who told you this

    D variation: (Let it ring)
    [E----------
    B----------
    G----------
    D-0-0--0~--
    A-0-0--0~--
    D-0-0--0~--]

    Payable on Death gonna hit ya hit-man
    Talk all you want, I don't fear any man
    Cuz ya frontin' ain't nothin but words to me
    You never had the stuff and your butt ain't crazy enough

    (D variation)
    Then the bass will play this:
    [G-------------------------------------------------------------
    D-------------------------------------------------------------
  • POD - Rock The Party
             
    742
    Dropped D tuning

    Intro & Verse: (Marcos has a TremloDelay effect on.
    I can't even get the same effect on my RP6. I don't how to get it!!)
    [E-----------------------------------------
    B-----------------------------------------
    G-----------------------------------------
    D-0-0-0-0-0-0-0-0-7-7-7-3-3-3-3-3---------
    A-0-0-0-0-0-0-0-0-7-7-7-3-3-3-3-3---------
    D-0-0-0-0-0-0-0-0-7-7-7-3-3-3-3-3---------]

    Chorus: (The chorus has the verse guitar behind it. But here's the lead.)
    [E-----------------------------------------------------
    B-----------------------------------------------------
    G-7-7-7-7-7-7-7-7-14-14-14-10-10-10-10-10-------------
    D-----------------------------------------------------
    A-5-5-5-5-5-5-5-5-12-12-12- 8 - 8 - 8 - 8 - 8---------
    D-----------------------------------------------------]

    Verse
  • POD - Rosa Linda
             
    695
    Dropped D tuning (Spanish Guitar)

    [E----------------------------------------------------------------------------------------------
    B-3--3-3-3/5-5/6-8--8p65/6-8-p6/3----3--3-3-3/5-5/6-8--8p65/6-8-p6/3----1--1-1-1-1/3-3/5-5/6-
    G-2--------------------------------------------2-------------------------------------------0---
    D-0--------------------------------------------0-------------------------------------------2---
    A-5--------------------------------------------5-------------------------------------------0---
    D-0--------------------------------------------0-----------------------------------------------]
    .
    [E----------------------------------------------------------------------------------------------
    B--6p5p3h5----1--1-1-1-1/3-3/5-5/6---6p5p3h5--3-------------------------------------------
    G-----------------0----------------------------------------3--3-3-3p2-0-----3p2-0-----0----------
  • POD - Satellite
             
    1161
    tuning: dropped c (CGCFAd) low to high

    Intro/verse
    [d----------------------------------------------------------------------------
    A-------3-3-3----------3-3-3-----3------------0-0-0----------0-0-0-----0-----
    F-------4-4-4----------4-4-4-----4------------0-0-0----------0-0-0-----0-----
    C-2-2-2-------2--2-2-2-------2-2---2-----------------------------------------
    G------------------------------------0--3-3-3-------3--3-3-3-------3-3---3-3-
    C----------------------------------------------------------------------------

    d----------------------------------------------------------------------------
    A-------0-0-0----------0-0-0-----0------------0-0-0----------0-0-0-----0-----
    F-------0-0-0----------0-0-0-----0------------0-0-0----------0-0-0-----0-----
    C----------------------------------------------------------------------------
  • POD - Set It Off
             
    821
    Dropped C Tuning
    [d
    a
    f
    C
    G
    C]

    Intro: (Distortion)
    [d----------------------------------------------------
    a----------------------------------------------------
    f--7-7-7-7-----7-7-7-7-------------------------------
    C--7-7-7-7--0--7-7-7-7--0--3-3-3-3--3h5--2-2-2-2--2h3
    G--5-5-5-5--0--5-5-5-5--0--3-3-3-3--3h5--2-2-2-2--2h3
    C-----------0-----------0--3-3-3-3--3h5--2-2-2-2--2h3]

    Verses: (Clean with Flanger)
    [d-----------8-----8------
    a------6-5----6-----6----
    f----7----------7-----7--
    C--5--------------------- } x2
    G------------------------
    C------------------------]
    .
    [d--------------------------
    a--------6--5--5-6----5-6--
    f------7-----------7------7
    C----7--------------------- } x2
    G--5-----------------------
    C--------------------------]
    .
  • POD - Set Your Eyes To Zion
             
    849
    Standard Tuning

    Intro: (parenthesis) = palm mute
    [E-----------------------------------------------------------------------------------------------
    B----------3h5p3-echo-echo-echo--5b(6)----------------------------------------------------------
    G-(0-2)-----------------------------------------------0h2p0-echo-echo----------3-4-echo-echo----
    D-----------------------------------------------(2-3)------------------------(3-5)--------------
    A-----------------------------------------------------------------------------------------------
    E-----------------------------------------------------------------------------------------------]

    Verse: (parenthesis) = echo here
    [E--5-(5-5-5-)--8-(8-8-8-)--1-(1-1-1-)--5-(5-5-5-)----
    B--5-(5-5-5-)--6-(6-6-6-)--1-(1-1-1-)--3-(3-3-3-)----
    G--7-(7-7-7-)--5-(5-5-5-)--2-(2-2-2-)--2-(2-2-2-)----
    D--7-(7-7-7-)--7-(7-7-7-)--3-(3-3-3-)--0-(0-0-0-)----
  • POD - Sothtown
             
    702
    the Intro is clean
    [D------------------------------------------
    A------------------------------------------
    F------------------------------------------
    C----4444-------------------4444-----------
    G----2222-222222222222-2222-222222222222---
    D-----------333333333333-------000000000000]

    slight dist
    [D------------------------------------------------
    A------------------------------------------------
    F------------------------------------------------
    C----4-----------------4444------------------4444
    G----2--555-5-5555--2222--222-2-2222---2222------
    D--------333-3-3333---------000-0-0000-----------

    D---------------------------------------
    A---------------------------------------
    F---------------------------------------
    C---------------------------------------
    G----55--7777-55--7777-22--4444-22--4444
  • POD - The Messenjah
             
    852
    Intro: [E-------------------------------------------------------------
    B---8-8-8-8-8-8-83-3-3-3-3-3-3/8-8-8-8-8-8-8/10-10-10-10-10--
    G---9-9-9-9-9-9-94-4-4-4-4-4-4/9-9-9-9-9-9-9/11-11-11-11-11--
    D-------------------------------------------------------------
    A-------------------------------------------------------------
    D-------------------------------------------------------------]

    Verse: [E-------------------------------------------------------------------------
    B-------------------------------------------------------------------------
    G-------------------------------------------------------------------------
    D-----------44-44-44-44-4-4-77-77-77-77-7-7-22-22-22-22-2-2-22-22-22-2-2--
    A-----------44-44-44-44-4-4-77-77-77-77-7-7-22-22-22-22-2-2-22-22-22-2-2--
    D---0-2-4-0-22-22-22-22-2-2-55-55-55-55-5-5-00-00-00-00-0-0-00-00-00-0-0--]
  • POD - Thinking About Forever
             
    869
    Tuning: CGCFAD – Tune it a whole step down on every string, and then just drop d (or in this case c) it.
    Intro: (I didn’t put how many times you strum the 3 chords at the beginning)(and // just means slide)
    [D--2---2---3-----3h5-5-5//7-7-7//9-9-9//10-10-10---2---2----2---2----
    A--2---2---3-----0-----0------0------0---------0---2---2----2---2----
    F--4---4---4---------------------------------------4---4----4---4----
    C--4---4---5---------------------------------------4-4-4----4-4-4----
    G--2---0---x---------------------------------------2---4~~--0---4~~--
    C----------5---------------------------------------------------------

    D--3--3---------
    A--4--4---------
    F--4--4---------
    C--5--4---------
    G--x--5---------
    C--5-----5///---]

    Verse: x2
    [D---------------------------------------------------------------------
  • POD - Tribal
             
    701
    Dropped D tuning

    Intro: 3x
    [E----------------
    B----------------
    G----------------
    D-4-6--4-6--7~---
    A-4-6--4-6--7~---
    D-4-6--4-6--7~---]

    Chorus: ("Where do you stand in this battle cry?…")
    [E-----------------------------------------------------------------------------
    B-----------------------------------------------------------------------------
    G----------------------------------8-8-8-8-8-8-8-8----------------------------
    D-7-7-7-7-7-7-7-7-7-7-8-8-8-8-8-8-8-8-8-8-8-8-5-5-5-5-5-5-5-5-----------------
    A-7-7-7-7-7-7-7-7-7-7-8-8-8-8-6-6-6-6-6-6-6-6-5-5-5-5-5-5-5-5-----------------
    D-7-7-7-7-7-7-7-7-7-7-8-8-8-8---------------------5-5-5-5-5-5-5-5-------------]

    Verse: ("The reconstruction commences…")
    [E-----------2-2-2-2-3-3~---
    B-------3--3-3-3-3-3-3~----
    G----2---------------------
1 2