Главная » » » Нервы - Вороны

Нервы - Вороны

178303
Тональность:
Размер шрифта:
Hm
Воля в кулаке, мысли в разные стороны,
                               Hm   A         G
По моей комнате гуляют черные вороны.
                                             F#
На потолке чувства одинокие собраны,
                         F#7                Hm
Они с грохотом падают мне на голову.

Hm          
Не сошел с ума и вполне осознанно
                       Hm   A         G 
Я вдыхаю этот яд вместе с воздухом.
                              F#
Туман не уходит с возрастом.
                   F#7                Hm
Я ищу, я кричу охрипшим голосом.

Hm
Эти полосы черно-белые,
                           Hm   A                G
Я нашел любовь, но потерял в нее веру.
                                 F#
Она жива и она еще дышит,
                       F#7               Hm
И я чувствую она меня тоже ищет.

Hm                  
Болит голова, но нет аспирина.
                         Hm            A           G
Так зачем же я пью эти таблетки от кашля?
                                             F#
Не нужны заменители этого мира,
                             F#7             Hm
Есть болезнь от которой нет лекарства.

Hm
Мне нужен свежий воздух,
И мне не страшно.
G
Билет на поезд,
Куда не важно.
Em
Я не боюсь потерять всё,
   G                    A                  
Начать заново оттуда куда занесет.

H5
Секс расслабляет, но не дает покоя.
                                                      A5   G5
Раньше я был хороший, теперь скажи какой я.
G5
И насколько аморален,
F#5                                                    H5
В этом мире безупречном, чистом и правильном.

H5
Ноль эмоций на лице,как из под ареста.
                   H5         A5       G5 
Я молча выхожу из ее подъезда.
G5
Все честно мы друг другу не обязаны,
F#5                                             H5  
Но я чувствую себя разбитым и грязным.

H5
Мои руки связаны моими же руками,
                        H5          A5      G5
Стоя на краю и я вспоминаю о маме.
G5
Думаю я бы ее огорчил,
F#5                                                        
Если бы покинул этот мир у нее не спросив.

H5
Но воля в кулаке! Воля в кулаке! Воля в кулаке!
                       H5     A5         G5
Видишь, я не сдамся этой тоске
G5
Мои мысли идите на 4 стороны...
F#5
Но не трогайте не трогайте меня вороны!


Hm
Мне нужен свежий воздух,
И мне не страшно.
G
Билет на поезд,
Куда не важно.
Em
Я не боюсь потерять всё,
   G                  A                 
Начать заново оттуда куда занесет.

E--------------------------------------------------------------------------
H------------3------------3----------------------3------------3----------
G---------0------------0----------------------0------------0-------------
D------4------------4----------------------4------------4----------------
A---2----------0------------------------2----------0---------------------
E-----------------3----------2-----------------------3----------2--------


      Hm                                    G                F#
Не страшно, не страшно, не страшно, не страшно
         Hm                                 G                F#
Не страшно, не страшно, не страшно, не страшно

Волля в кулаке мысли в разные стороны,
По моей комнате гуляют черные вороны
E--------------------------------------------------------------------------
H-------7------7-------7-------10-------7--5-------5-------5----------
G----7------7-------7-------7---------7-------7-------7-------7-------
D-7------7-------7-------7---------7-------------7-------7-------------
A--------------------------------------------------------------------------
E--------------------------------------------------------------------------