Главная » » » Танцы минус - Половинка

Танцы минус - Половинка

Вариант: Осн
50534
Тональность:
Размер шрифта:
Проигрыш:

  Dm       B           F          A
E|------------------------------------------|
B|-------------1----------------------------|
G|-----7---------------------2---------2----|
D|---7---7/-------3------------------2---2/-|
A|-5---------1-------1-----3---3---0--------|
E|----------------------1-------------------|

E|------------------------------------------|
B|-------------1----------------------------|
G|-----7---------------------2--------------|
D|---7---7/-------3-------------------7-----|
A|-5---------1-------1-----3---3/-------7---|
E|-----------------------1----------5-----5-|

Dm   B      F       A           Dm
У ночного огня, под огромной луной
       B        F          A       Dm
Темный лес укрывал нас зеленой листвой
    B       F        A     Dm
Я тебя целовал у ночного огня
    B      F   A  Dm  B  F
Я тебе подарил             половинку себя

Свет далекой звезды песни птиц до утра
Ты смотрела в глаза мои шептала слова
Ты не верила мне, но любила меня
Я оставил с тобой половинку себя

Все что было забыто то что было прошло
Ты махала мне вслед бирюзовым платком
Я тебя целовал у ночного огня
Ты оставила мне половинку меня

Solo:
                                                         3x
E|-------------------------------------------------------------|
B|-------------------------------------------------------------|
G|-7~-7~--5-7b8r7-5---7--7b8r7-5---7--7b8r7-5---7--5---5~----|
D|------------------7------------7------------7------7-------|
A|-------------------------------------------------------------|
E|-------------------------------------------------------------|

E|-------------------------------------------------------------|
B|-------------------------------------------------------------|
G|-7~-7~--5-7b8r7-5---7--7b8r7-5---7--7b8r7-5---7--5------7----|
D|------------------7------------7------------7------7-5--7----|
A|--------------------------------------------------------5----|
E|-------------------------------------------------------------|